  0
SECTION
  2
HEADER
  9
$ACADVER
  1
AC1009
  9
$INSBASE
 10
0
 20
0
  9
$EXTMIN
 10
0
 20
-41.535303880054
  9
$EXTMAX
 10
5.150000000000006
 20
7.09894167926079
  9
$LIMMIN
 10
0
 20
-41.535303880054
  9
$LIMMAX
 10
5.150000000000006
 20
7.09894167926079
  9
$VIEWCTR
 10
10
 20
10
  9
$VIEWSIZE
 40
10
  9
$SNAPMODE
 70
0
  9
$SNAPUNIT
 10
1
 20
1
  9
$SNAPBASE
 10
0
 20
0
  9
$SNAPANG
 50
0
  9
$SNAPSTYLE
 70
0
  9
$SNAPISOPAIR
 70
0
  9
$GRIDMODE
 70
0
  9
$GRIDUNIT
 10
0
 20
0
  9
$ORTHOMODE
 70
0
  9
$REGENMODE
 70
1
  9
$FILLMODE
 70
1
  9
$QTEXTMODE
 70
0
  9
$DRAGMODE
 70
2
  9
$LTSCALE
 40
1
  9
$OSMODE
 70
0
  9
$ATTMODE
 70
1
  9
$TEXTSIZE
 40
3.5
  9
$TRACEWID
 40
0.5
  9
$TEXTSTYLE
  7
STANDARD
  9
$CLAYER
  8
0
  9
$CELTYPE
  6
BYLAYER
  9
$CECOLOR
 62
256
  9
$DIMSCALE
 40
1
  9
$DIMASZ
 40
0.18
  9
$DIMEXO
 40
0.0625
  9
$DIMDLI
 40
0.38
  9
$DIMRND
 40
0
  9
$DIMDLE
 40
0
  9
$DIMEXE
 40
0.18
  9
$DIMTP
 40
0
  9
$DIMTM
 40
0
  9
$DIMTXT
 40
0.18
  9
$DIMCEN
 40
0.09
  9
$DIMTSZ
 40
0
  9
$DIMTOL
 70
0
  9
$DIMLIM
 70
0
  9
$DIMTIH
 70
1
  9
$DIMTOH
 70
1
  9
$DIMSE1
 70
0
  9
$DIMSE2
 70
0
  9
$DIMTAD
 70
0
  9
$DIMZIN
 70
0
  9
$DIMBLK
  1

  9
$DIMASO
 70
1
  9
$DIMSHO
 70
1
  9
$DIMPOST
  1

  9
$DIMAPOST
  1

  9
$DIMALT
 70
0
  9
$DIMALTD
 70
2
  9
$DIMALTF
 40
25.4
  9
$DIMLFAC
 40
1
  9
$DIMTOFL
 70
0
  9
$DIMTVP
 40
0
  9
$DIMTIX
 70
0
  9
$DIMSOXD
 70
0
  9
$DIMSAH
 70
0
  9
$DIMBLK1
  1

  9
$DIMBLK2
  1

  9
$DIMSTYLE
  2
*UNNAMED
  9
$DIMCLRD
 70
0
  9
$DIMCLRE
 70
0
  9
$DIMCLRT
 70
0
  9
$DIMTFAC
 40
1
  9
$DIMGAP
 40
0.09
  9
$LUNITS
 70
2
  9
$LUPREC
 70
4
  9
$AXISMODE
 70
0
  9
$AXISUNIT
 10
0
 20
0
  9
$SKETCHINC
 40
0.1
  9
$FILLETRAD
 40
2
  9
$AUNITS
 70
0
  9
$AUPREC
 70
0
  9
$MENU
  1
ACAD
  9
$ELEVATION
 40
0
  9
$THICKNESS
 40
0
  9
$VIEWDIR
 10
0
 20
0
 30
1
  9
$LIMCHECK
 70
0
  9
$BLIPMODE
 70
1
  9
$CHAMFERA
 40
0
  9
$CHAMFERB
 40
0
  9
$FASTZOOM
 70
1
  9
$SKPOLY
 70
0
  9
$ANGBASE
 50
0
  9
$ANGDIR
 70
0
  9
$PDMODE
 70
0
  9
$PDSIZE
 40
0
  9
$PLINEWID
 40
0
  9
$COORDS
 70
2
  0
ENDSEC
  0
SECTION
  2
TABLES
  0
TABLE
  2
DIMSTYLE
 70
0
  0
ENDTAB
  0
TABLE
  2
LTYPE
 70
9
  0
LTYPE
  2
CONTINUOUS
 70
64
  3
Solid line
 72
65
 73
0
 40
0
  0
LTYPE
  2
BORDER
 70
64
  3
__ __ . __ __ .
 72
65
 73
6
 40
2.239734992863181
 49
0.6399242836751946
 49
-0.3199621418375973
 49
0.6399242836751946
 49
-0.3199621418375973
 49
0
 49
-0.3199621418375973
  0
LTYPE
  2
CENTER
 70
64
  3
____ _ ____ _
 72
65
 73
4
 40
2.559697134700778
 49
1.599810709187987
 49
-0.3199621418375973
 49
0.3199621418375973
 49
-0.3199621418375973
  0
LTYPE
  2
DASHDOT
 70
64
  3
__ . __ . __ .
 72
65
 73
4
 40
1.279848567350389
 49
0.6399242836751946
 49
-0.3199621418375973
 49
0
 49
-0.3199621418375973
  0
LTYPE
  2
DASHED
 70
64
  3
__ __ __ __ __
 72
65
 73
2
 40
0.9598864255127919
 49
0.6399242836751946
 49
-0.3199621418375973
  0
LTYPE
  2
DIVIDE
 70
64
  3
__ . . __ . . 
 72
65
 73
6
 40
1.599810709187987
 49
0.6399242836751946
 49
-0.3199621418375973
 49
0
 49
-0.3199621418375973
 49
0
 49
-0.3199621418375973
  0
LTYPE
  2
DOT
 70
64
  3
..............
 72
65
 73
4
 40
0.6399242836751946
 49
0
 49
-0.3199621418375973
 49
0
 49
-0.3199621418375973
  0
LTYPE
  2
HIDDEN
 70
64
  3
_ _ _ _ _ _ _
 72
65
 73
2
 40
0.479943212756396
 49
0.3199621418375973
 49
-0.1599810709187987
  0
LTYPE
  2
PHANTOM
 70
64
  3
_____ _ _ _____ _ _ 
 72
65
 73
6
 40
3.199621418375973
 49
1.599810709187987
 49
-0.3199621418375973
 49
0.3199621418375973
 49
-0.3199621418375973
 49
0.3199621418375973
 49
-0.3199621418375973
  0
ENDTAB
  0
TABLE
  2
LAYER
 70
3
  0
LAYER
  2
0
 70
0
 62
7
  6
CONTINUOUS
  0
LAYER
  2
1
 70
0
 62
7
  6
CONTINUOUS
  0
ENDTAB
  0
TABLE
  2
STYLE
 70
4
  0
STYLE
  2
STANDARD
 70
0
 40
0
 41
1
 50
0
 71
0
 42
3.5
  3
txt
  4

  0
STYLE
  2
SIMPLEX
 70
0
 40
0
 41
1
 50
0
 71
0
 42
3.5
  3
simplex
  4

  0
STYLE
  2
COMPLEX
 70
0
 40
0
 41
1
 50
0
 71
0
 42
3.5
  3
complex
  4

  0
STYLE
  2
ITALIC
 70
0
 40
0
 41
1
 50
0
 71
0
 42
3.5
  3
italic
  4

  0
ENDTAB
  0
TABLE
  2
VIEW
 70
0
  0
ENDTAB
  0
ENDSEC
  0
SECTION
  2
BLOCKS
  0
ENDSEC
  0
SECTION
  2
ENTITIES
  0
POINT
  8
1
 62
7
  6
DOT
 10
0
 20
0
 30
0
  0
LINE
  8
0
 62
7
 10
1.125
 20
-39.23530388005351
 30
0
 11
1.125
 21
-35.6853038800536
 31
0
  0
LINE
  8
0
 62
7
 10
1.125
 20
5.614696119945791
 30
0
 11
4.025000000000006
 21
5.614696119945791
 31
0
  0
LINE
  8
0
 62
7
 10
4.025000000000006
 20
2.064696119945992
 30
0
 11
4.025000000000006
 21
5.614696119945791
 31
0
  0
LINE
  8
0
 62
7
 10
1.125
 20
2.064696119945992
 30
0
 11
1.125
 21
5.614696119945791
 31
0
  0
LINE
  8
0
 62
7
 10
5.150000000000006
 20
-18.2353038800542
 30
0
 11
0
 21
-18.2353038800542
 31
0
  0
LINE
  8
0
 62
7
 10
4.025000000000006
 20
-39.23530388005351
 30
0
 11
4.025000000000006
 21
-35.6853038800536
 31
0
  0
LINE
  8
0
 62
7
 10
0
 20
-34.0744090698615
 30
0
 11
5.150000000000006
 21
-34.0744090698615
 31
0
  0
LINE
  8
0
 62
7
 10
0
 20
-33.59144615671801
 30
0
 11
5.150000000000006
 21
-33.59144615671801
 31
0
  0
LINE
  8
0
 62
7
 10
4.025000000000006
 20
-35.6853038800536
 30
0
 11
1.125
 21
-35.6853038800536
 31
0
  0
LINE
  8
0
 62
7
 10
0
 20
-35.58353205813741
 30
0
 11
5.150000000000006
 21
-35.58353205813741
 31
0
  0
LINE
  8
0
 62
7
 10
1.125
 20
2.064696119945992
 30
0
 11
4.025000000000006
 21
2.064696119945992
 31
0
  0
LINE
  8
0
 62
7
 10
4.025000000000006
 20
-6.385303880053812
 30
0
 11
4.025000000000006
 21
-2.485303880053806
 31
0
  0
LINE
  8
0
 62
7
 10
4.025000000000006
 20
-6.385303880053812
 30
0
 11
1.125
 21
-6.385303880053812
 31
0
  0
LINE
  8
0
 62
7
 10
1.125
 20
-2.485303880053806
 30
0
 11
1.125
 21
-6.385303880053812
 31
0
  0
LINE
  8
0
 62
7
 10
0
 20
-0.8791435646646022
 30
0
 11
5.150000000000006
 21
-0.8791435646646022
 31
0
  0
LINE
  8
0
 62
7
 10
4.025000000000006
 20
-2.485303880053806
 30
0
 11
1.125
 21
-2.485303880053806
 31
0
  0
LINE
  8
0
 62
7
 10
4.574999999999989
 20
-22.38530387892261
 30
0
 11
4.574999999999989
 21
-26.23530387873261
 31
0
  0
LINE
  8
0
 62
7
 10
4.574999999674986
 20
-18.2353038800542
 30
0
 11
4.574999999674986
 21
-22.08530387896091
 31
0
  0
LINE
  8
0
 62
7
 10
0
 20
7.09894167926079
 30
0
 11
5.150000000000006
 21
7.09894167926079
 31
0
  0
LINE
  8
0
 62
7
 10
0
 20
-26.23530387873261
 30
0
 11
5.150000000000006
 21
-26.23530387873261
 31
0
  0
LINE
  8
0
 62
7
 10
0
 20
-0.3961806515205097
 30
0
 11
5.150000000000006
 21
-0.3961806515205097
 31
0
  0
LINE
  8
0
 62
7
 10
0
 20
-41.535303880054
 30
0
 11
5.150000000000006
 21
-41.535303880054
 31
0
  0
LINE
  8
0
 62
7
 10
0.5749999998720057
 20
-26.23530387873261
 30
0
 11
0.5749999998720057
 21
-22.38530387892261
 31
0
  0
LINE
  8
0
 62
7
 10
0.5749999998029978
 20
-22.08530387896091
 30
0
 11
0.5749999998029978
 21
-18.2353038800542
 31
0
  0
LINE
  8
0
 62
7
 10
0.5749999998029978
 20
-22.08530387896091
 30
0
 11
4.574999999674986
 21
-22.08530387896091
 31
0
  0
LINE
  8
0
 62
7
 10
4.574999999999989
 20
-22.38530387892261
 30
0
 11
0.5749999998720057
 21
-22.38530387892261
 31
0
  0
LINE
  8
0
 62
7
 10
0.8249999999999886
 20
-10.56030387939221
 30
0
 11
4.324999999999989
 21
-10.56030387939221
 31
0
  0
LINE
  8
0
 62
7
 10
4.324999999999989
 20
-14.01030387939221
 30
0
 11
4.324999999999989
 21
-10.56030387939221
 31
0
  0
LINE
  8
0
 62
7
 10
4.324999999999989
 20
-14.01030387939221
 30
0
 11
0.8249999999999886
 21
-14.01030387939221
 31
0
  0
LINE
  8
0
 62
7
 10
0.8249999999999886
 20
-10.56030387939221
 30
0
 11
0.8249999999999886
 21
-14.01030387939221
 31
0
  0
LINE
  8
0
 62
7
 10
0
 20
-9.545938685295908
 30
0
 11
5.150000000000006
 21
-9.545938685295908
 31
0
  0
LINE
  8
0
 62
7
 10
1.125
 20
-28.08530388005381
 30
0
 11
1.125
 21
-31.98530388005381
 31
0
  0
LINE
  8
0
 62
7
 10
4.024999999998983
 20
-28.085303880052
 30
0
 11
1.125
 21
-28.08530388005381
 31
0
  0
LINE
  8
0
 62
7
 10
4.025000000001995
 20
-31.98530388005201
 30
0
 11
4.024999999998983
 21
-28.085303880052
 31
0
  0
LINE
  8
0
 62
7
 10
4.025000000001995
 20
-31.98530388005201
 30
0
 11
1.125
 21
-31.98530388005381
 31
0
  0
LINE
  8
0
 62
7
 10
1.125
 20
-39.23530388005351
 30
0
 11
4.025000000000006
 21
-39.23530388005351
 31
0
  0
LINE
  8
0
 62
7
 10
0
 20
1.112942336752297
 30
0
 11
5.150000000000006
 21
1.112942336752297
 31
0
  0
LINE
  8
1
 62
7
 10
0
 20
7.09894167926079
 30
0
 11
0
 21
-41.535303880054
 31
0
  0
LINE
  8
1
 62
7
 10
5.150000000000006
 20
-41.535303880054
 30
0
 11
5.150000000000006
 21
7.09894167926079
 31
0
  0
LINE
  8
0
 62
7
 10
0
 20
-15.010303880053
 30
0
 11
5.150000000000006
 21
-15.010303880053
 31
0
  0
CIRCLE
  8
1
 62
7
 10
2.574999999999989
 20
3.664696119945688
 30
0
 40
1.199999999998994
  0
CIRCLE
  8
1
 62
7
 10
2.574999999999989
 20
-4.435303880053908
 30
0
 40
1.200000000000017
  0
CIRCLE
  8
1
 62
7
 10
2.574999999999989
 20
-30.0353038800539
 30
0
 40
1.200000000000017
  0
CIRCLE
  8
1
 62
7
 10
2.574999999999989
 20
-37.28530388005331
 30
0
 40
1.200000000000017
  0
ENDSEC
  0
EOF
